FANDOM


Charlie Murder OST While the Living Warm Their Bones03:54

Charlie Murder OST While the Living Warm Their Bones

While the Living Warm Their Bones is the song by the band Charlie Murder that plays in the Good Ending of the game.

DescriptionEdit

This is the song that accompanies the slideshow that presents to us what's next for the band. In the slideshow we can see Kelly and Charlie getting married, Tommy and Lester setting up an action figure and comic book shop, and Rex is in the cat milking farm he invested his money in. The whole song has every member of the band singing, similar to 1234.

LyricsEdit

Back from the grave,
Alive for a day,
An eye for an eye,
We'll just play for pride


Crashed through the pavement,
Lord the preacher,
Couldn't save me,
I'm a target
Energy
I'm forgiven


Aaaaand I’m free
From the grave,
From the clutches,
Of the self destructive


Free,
Like the world,
Running up,
Into the truth


And the living
Warm their bones
Won’t retaliate
Fuckin' drones


And the Earth
In the grass
Where a city
Is a Town


(Charlie in Background: "We're guilty, no longer-oh~!" X6)

We live for a day,
For a dying,
God to notice,
We’re together
Please repent

Love is dying
Tell the world
To go out and waste it
Gone!
Like a grave,
Like we’re worthless

Everything you gave...


(Charlie in Background: "We're guilty, no longer-oh~!" X4)

Tabs

E -----------------------------------------------------------------------
B -----------------------------------------------------------------------
G -----9-10---9-10---9-10-12-10-9-10-9-----------------------------------
D --10------9------7---------------------10-----10-----10-12-14-12-10----
A -------------------------------------8----8-7----7-5-------------------
E -----------------------------------------------------------------------

E -------------------------------------------------------------------------
B -------------------------------------------------------------------------
G -------------------------------------------------------------------------
D -------------------------------------------------------------------------
A -10-10-10-10-10-10-10-10-9-9-9-9-9-9-9-9-7-7-7-7-7-7-7-7-5-5-5-5-5-5-5-5-
E -8--8--8--8--8--8--8--8--7-7-7-7-7-7-7-7-5-5-5-5-5-5-5-5-3-3-3-3-3-3-3-3-

E -----------------------------------------------------------------
B -----------------------------------------------------------------
G -----------------------------------------------------------------
D -----------------------------------------------------------------
A -3-3-3-3-3-3-3-3-2-2-2-2-2-2-2-2-3-3-3-3-3-3-3-3-5-5-5-5-5-5-5-5-
E -1-1-1-1-1-1-1-1-0-0-0-0-0-0-0-0-1-1-1-1-1-1-1-1-3-3-3-3-3-3-3-3-

External ReferencesEdit

Ska Studios' Tumblr Post

Ska Studios' Music

Ad blocker interference detected!


Wikia is a free-to-use site that makes money from advertising. We have a modified experience for viewers using ad blockers

Wikia is not accessible if you’ve made further modifications. Remove the custom ad blocker rule(s) and the page will load as expected.